Category Archives: gitártab

Romance (Anonymous) kotta (E moll)

Egy klasszikus.

||7-----7-----7-----|7-----5-----3-----|3-----2-----0-----|0-----3-----7-----|
||--0-----0-----0---|--0-----0-----0---|--0-----0-----0---|--0-----0-----0---|
||----0-----0-----0-|--0-----0-----0---|----0-----0-----0-|--0-----0-----0---|
||------------------|------------------|------------------|------------------|
||------------------|------------------|------------------|------------------|
||0-----------------|0-----------------|0-----------------|0-----------------|

12-----12-----12-----|12-----10-----8-----|8-----7-----5-----|5-----7-----8-----|
---0------0------0---|---0------0-----0---|--5-----5-----5---|--5-----5-----5---|
-----0------0------0-|-----0------0-----0-|----5-----5-----5-|----5-----5-----5-|
---------------------|--------------------|------------------|------------------|
---------------------|--------------------|0-----------------|0-----------------|
0------0------0------|0------0------0-----|------------------|------------------|

7-----8-----7-----|11-----8-----7-----|7-----5-----3-----|3-----2-----0-----|
--7-----7-----7---|---7-----7-----7---|--0-----0-----0---|--0-----0-----0---|
----8-----8-----8-|-----8-----8-----8-|----0-----0-----0-|--0-----0-----0---|
------------------|---------.---------|------------------|------------------|
------------------|----------.--------|------------------|------------------|
7-----------------|7------------------|0-----------------|0-----------------|

2-----2-----2-----|2-----3-----2-----|0-----0-----0-----|0~~~               ||
--0-----0-----0---|--0-----0-----0---|--0-----0-----0---|0~~~               ||
----2-----2-----2-|----2-----2-----2-|----0-----0-----0-|0~~~               ||
------------------|------------------|2-----------------|----               ||
2-----------------|2-----------------|------2-----------|----               ||
------------------|------------------|------------3-----|0~~~               ||

Pet Shop Boys – Love, etc (tab)

Sziasztok,

hétfőn koncert, muszáj valamit alkotni. 🙂 A Love, etc szerintem egy nagyon kedves kis szám, jól is hangzik, ráadásul a külföldi oldalakon szarul vannak fent az akkordok. Ez mind indok arra, hogy én is közreadjam a tabot, amiben az akkordok mellett ott van a fő motívum. D moll az alap, alapvetően pofonegyszerű az egész de zseniálisan kavarják, lehet ketten nyomni és bárhogy játszod, mindig kijön:

|---------------------------|-------------------------|
|---------------------------|-------------------------|
|-----2-7---7-5---5-3---3-2-|---2-7---7-5---5-3---3-2-|
|(0)0-----0-----0-----0-----|-0-----0-----0-----0-----|
|---------------------------|-------------------------|
|---------------------------|-------------------------|

|-------------------------|--------------------------|
|-------------------------|--------------------------|
|---2-7---7-5---5-3---3-2-|---2-7---7-9---10-3---3-2-|
|-0-----0-----0-----0-----|-0-----0-----0------0-----|
|-------------------------|--------------------------|
|-------------------------|--------------------------|

(A zárójelbe tett üres D hangot csak a legelején kell belepengetni)
Verse:

Dm
Boy, it's tough getting on in the world
Bb                      F
When the sun doesn't shine and a boy needs a girl
C                     Bb
It's about getting out of a rut, you need luck
Gm        F          Bb   C
But you're stuck and don't know how, oh

Refrain:

Dm                 Am        Gm
Don't have to be a big bucks Hollywood star
Dm                    Am           Gm
Don't have to drive a super car to get far
Dm                   Am      Gm
Don't have to live a life of power and wealth
Dm               Am        Gm
Don't have to be beautiful but it helps

Don't have to buy a house in Beverly hills
Don't have to have your daddy paying the bills
Don't have to live a life of power and wealth
Don't have to be beautiful but it helps

You need more
Than a big blank check to be a lover
Or a gulf stream jet to fly you door to door
Somewhere chic on another shore

You need more, you need more, you need more
You need more, you need more, you need more
You need love, you need love, you need love

Too much of anything is never enough
Too much of everything is never enough

Verse:

Boy, it's tough getting on in the world
When the sun doesn't shine and a boy needs a girl
It's about getting out of a rut, you need luck
But you're stuck and you don't know how, oh

Refrain:

Don't have to be a big bucks Hollywood star
Don't have to drive a super car to get far
Don't have to wear a smile much colder than ice
Don't have to be beautiful but it's nice

You need more
Than Gerhard Richter hangin' on your wall
A chauffeur driven limousine on call
To drive your wife and lover to a white tie ball

You need more, you need more, you need more
You need more, you need more, you need more
You need love

I believe that we can achieve
(You need more, you need more, you need more)
The love that we need
(You need more, you need more, you need more)

I believe, call me naive
(You need more, you need more, you need more)
Love is for free, oh
(You need more, you need more, you need more)

Don't have to be a big bucks Hollywood star
Don't have to drive a super car to get far
Don't have to live a life of power and wealth
Don't have to be beautiful but it helps
Beautiful but it helps, beautiful but it helps

by sixweb, 2014

Szinte sajnálom, hogy a kisállatkereskedés-srácok csak kicsit járultak hozzá a szám megírásához.