Morcheeba – Enjoy the ride gitártab

Még egy cucc, ami nincs fent a gitartab.hu-n, pedig régi szám. Nem sokáig lesznek már ráérős időim, úgyhogy (Melcsi kedvéért) lefüleltem ezt a számot is. Remélem, majd fogom játszogatni alkalomadtán. 🙂 Ja és persze majd pár napon belül felteszem Magyarország legnagyobb gitár tabulatúra oldalára is. :-))

Morcheeba: Enjoy the ride

Verse:
Am       Am       Dm       Am
|--------|--------|--------|--------|
|0-------|0-------|--------|0-------|
|--------|--------|0-------|--------|
|-2-2--2-|-2-2--2-|-2-2--2-|-2-2--2-|
|--1--1-1|--1--1-1|--3--3-3|--1--1-1|
|----0---|----0---|----1---|----0---|

F    Em  Am       F    Em  Am
|--------|--------|--------|--------|
|3---2---|0-------|3---2---|0-------|
|--------|--------|--------|--------|
|-2---0-0|-2-2--2-|-2---0-0|-2-2--2-|
|---1--0-|--1--1-1|---1--0-|--1--1-1|
|--1-----|----0---|--1-----|----0---|

Refr:
Am       G        C    D   Am
|--------|3-------|--------|--------|
|0-------|--------|3-------|0-------|
|--------|--------|----0---|--------|
|-2-2--2-|-0-0--0-|-0-0-2-2|-2-2--2-|
|--1--1-1|--0--0-0|--1---3-|--1--1-1|
|----0---|----3---|--------|----0---|

Verse:
------

[Am]
Shut the gates at sunset
[Am]
After that you can't get out
        [Dm]
You can see the bigger picture
         [Am]
Find out what it’s all about
       [F]         [Em]
You're open to the skyline
          [Am]
You won't want to go back home
     [Dm]
In a garden full of angels
         [Am]
You will never be alone

Bridge:
-------

    [F]    [Em]     [Am]
But ooooh the road is long
                        [F]         [Em]
The stones that you are walking on
[Am]
Have gone

Refr:
-----

         [Am]
With the moonlight to guide you
         [G]
Feel the joy of being alive
    [C]               [D]
The day that you stop running
       [Am]
Is the day that you arrive

And the night that you got locked in
Was the time to decide
Stop chasing shadows
Just enjoy the ride

If you close the door to your house
Don't let anybody in
It's a room that's full of nothing
All that underneath your skin
Face against the window
You can watch it fade to grey
And you'll never catch that fickle wind
If you choose to stay

But oooh the road is long
The stones that you are walking on
Have gone

With the moonlight to guide you
Feel the joy of being alive
The day that you stop running
Is the day that you arrive

And the night that you got locked in
Was the time to decide
Stop chasing shadows
Just enjoy the ride

Stop chasing shadows
Just enjoy the ride

Tab by: sixweb, www.sixweb.hu

Ha hibát talál valaki benne, vagy érthetetlen, kérem jelezze.